ISO-10303-21;
HEADER;
FILE_DESCRIPTION (( 'STEP AP203' ),
    '1' );
FILE_NAME ('Q-QZWP-R4-20-1550-M.STEP',
    '2020-12-23T01:25:07',
    ( '' ),
    ( '' ),
    'SwSTEP 2.0',
    'SolidWorks 2020',
    '' );
FILE_SCHEMA (( 'CONFIG_CONTROL_DESIGN' ));
ENDSEC;

DATA;
#1 = AXIS2_PLACEMENT_3D ( 'NONE', #68, #147, #150 ) ;
#2 = DIRECTION ( 'NONE',  ( -1.000000000000000000, 0.000000000000000000, -0.000000000000000000 ) ) ;
#3 = APPROVAL_STATUS ( 'not_yet_approved' ) ;
#4 =( NAMED_UNIT ( * ) SI_UNIT ( $, .STERADIAN. ) SOLID_ANGLE_UNIT ( ) );
#5 = ADVANCED_FACE ( 'NONE', ( #93 ), #194, .F. ) ;
#6 = PLANE ( 'NONE',  #247 ) ;
#7 = VERTEX_POINT ( 'NONE', #245 ) ;
#8 = CARTESIAN_POINT ( 'NONE',  ( -3.000000000000000444, 0.000000000000000000, 0.000000000000000000 ) ) ;
#9 = FACE_OUTER_BOUND ( 'NONE', #225, .T. ) ;
#10 = ORIENTED_EDGE ( 'NONE', *, *, #242, .T. ) ;
#11 = CARTESIAN_POINT ( 'NONE',  ( 3.000000000000000000, 0.000000000000000000, 0.000000000000000000 ) ) ;
#12 = EDGE_LOOP ( 'NONE', ( #294, #198 ) ) ;
#13 = EDGE_CURVE ( 'NONE', #7, #141, #17, .T. ) ;
#14 = ORIENTED_EDGE ( 'NONE', *, *, #296, .F. ) ;
#15 = EDGE_CURVE ( 'NONE', #219, #133, #279, .T. ) ;
#16 = VERTEX_POINT ( 'NONE', #273 ) ;
#17 = CIRCLE ( 'NONE', #224, 12.69999999999999929 ) ;
#18 = CARTESIAN_POINT ( 'NONE',  ( 2.500000000000000888, 1.224646799147353256E-15, -10.00000000000000000 ) ) ;
#19 = DATE_TIME_ROLE ( 'creation_date' ) ;
#20 = LINE ( 'NONE', #122, #260 ) ;
#21 = DIRECTION ( 'NONE',  ( 0.000000000000000000, 0.000000000000000000, 1.000000000000000000 ) ) ;
#22 = DIRECTION ( 'NONE',  ( -1.000000000000000000, -0.000000000000000000, -0.000000000000000000 ) ) ;
#23 = CIRCLE ( 'NONE', #177, 12.69999999999999929 ) ;
#24 = FACE_BOUND ( 'NONE', #42, .T. ) ;
#25 = PERSON_AND_ORGANIZATION_ROLE ( 'creator' ) ;
#26 = DIRECTION ( 'NONE',  ( -1.000000000000000000, -0.000000000000000000, -0.000000000000000000 ) ) ;
#27 = PRODUCT ( 'Q-QZWP-R4-20-1550-M', 'Q-QZWP-R4-20-1550-M', '', ( #132 ) ) ;
#28 = APPROVAL_ROLE ( '' ) ;
#29 = CALENDAR_DATE ( 2020, 23, 12 ) ;
#30 = DIRECTION ( 'NONE',  ( 0.000000000000000000, 0.000000000000000000, 1.000000000000000000 ) ) ;
#31 = ORIENTED_EDGE ( 'NONE', *, *, #290, .F. ) ;
#32 = CYLINDRICAL_SURFACE ( 'NONE', #72, 10.00000000000000000 ) ;
#33 = APPLICATION_PROTOCOL_DEFINITION ( 'international standard', 'config_control_design', 1994, #57 ) ;
#34 = EDGE_CURVE ( 'NONE', #133, #16, #139, .T. ) ;
#35 = APPROVAL ( #201, 'UNSPECIFIED' ) ;
#36 = ORIENTED_EDGE ( 'NONE', *, *, #217, .T. ) ;
#37 = EDGE_LOOP ( 'NONE', ( #66, #218 ) ) ;
#38 = AXIS2_PLACEMENT_3D ( 'NONE', #135, #291, #264 ) ;
#39 = ORIENTED_EDGE ( 'NONE', *, *, #74, .T. ) ;
#40 = ORIENTED_EDGE ( 'NONE', *, *, #257, .F. ) ;
#41 = DATE_AND_TIME ( #70, #311 ) ;
#42 = EDGE_LOOP ( 'NONE', ( #60, #87 ) ) ;
#43 = CIRCLE ( 'NONE', #184, 10.00000000000000000 ) ;
#44 = CARTESIAN_POINT ( 'NONE',  ( -2.500000000000000444, 1.224646799147353256E-15, -10.00000000000000000 ) ) ;
#45 = DIRECTION ( 'NONE',  ( 0.000000000000000000, 0.000000000000000000, -1.000000000000000000 ) ) ;
#46 = CARTESIAN_POINT ( 'NONE',  ( -3.000000000000000444, 0.000000000000000000, 0.000000000000000000 ) ) ;
#47 = EDGE_CURVE ( 'NONE', #246, #278, #92, .T. ) ;
#48 = PERSON ( 'UNSPECIFIED', 'UNSPECIFIED', 'UNSPECIFIED', ('UNSPECIFIED'), ('UNSPECIFIED'), ('UNSPECIFIED') ) ;
#49 = CARTESIAN_POINT ( 'NONE',  ( -1.614212418857619014, 0.000000000000000000, 10.00000000000000000 ) ) ;
#50 = CC_DESIGN_APPROVAL ( #244, ( #100 ) ) ;
#51 = SECURITY_CLASSIFICATION_LEVEL ( 'unclassified' ) ;
#52 = CARTESIAN_POINT ( 'NONE',  ( 2.500000000000000888, 0.000000000000000000, 0.000000000000000000 ) ) ;
#53 = CC_DESIGN_PERSON_AND_ORGANIZATION_ASSIGNMENT ( #300, #265, ( #114 ) ) ;
#54 = CARTESIAN_POINT ( 'NONE',  ( -1.614212418857619014, 0.000000000000000000, 12.69999999999999929 ) ) ;
#55 = FACE_BOUND ( 'NONE', #222, .T. ) ;
#56 = AXIS2_PLACEMENT_3D ( 'NONE', #46, #75, #121 ) ;
#57 = APPLICATION_CONTEXT ( 'configuration controlled 3d designs of mechanical parts and assemblies' ) ;
#58 = CIRCLE ( 'NONE', #71, 12.69999999999999929 ) ;
#59 = CC_DESIGN_SECURITY_CLASSIFICATION ( #100, ( #114 ) ) ;
#60 = ORIENTED_EDGE ( 'NONE', *, *, #47, .F. ) ;
#61 = DIRECTION ( 'NONE',  ( 0.000000000000000000, 0.000000000000000000, 1.000000000000000000 ) ) ;
#62 = ADVANCED_FACE ( 'NONE', ( #24, #334 ), #284, .F. ) ;
#63 = EDGE_LOOP ( 'NONE', ( #116, #131, #14, #31 ) ) ;
#64 = ORIENTED_EDGE ( 'NONE', *, *, #204, .F. ) ;
#65 = DATE_AND_TIME ( #29, #215 ) ;
#66 = ORIENTED_EDGE ( 'NONE', *, *, #296, .T. ) ;
#67 = SHAPE_DEFINITION_REPRESENTATION ( #328, #166 ) ;
#68 = CARTESIAN_POINT ( 'NONE',  ( -3.000000000000000000, 10.00000000000000000, 0.000000000000000000 ) ) ;
#69 = CIRCLE ( 'NONE', #112, 12.69999999999999929 ) ;
#70 = CALENDAR_DATE ( 2020, 23, 12 ) ;
#71 = AXIS2_PLACEMENT_3D ( 'NONE', #251, #231, #126 ) ;
#72 = AXIS2_PLACEMENT_3D ( 'NONE', #81, #267, #211 ) ;
#73 = CARTESIAN_POINT ( 'NONE',  ( -1.614212418857619014, 0.000000000000000000, 0.000000000000000000 ) ) ;
#74 = EDGE_CURVE ( 'NONE', #115, #16, #161, .T. ) ;
#75 = DIRECTION ( 'NONE',  ( -1.000000000000000000, -0.000000000000000000, -0.000000000000000000 ) ) ;
#76 = DIRECTION ( 'NONE',  ( 0.000000000000000000, 0.000000000000000000, -1.000000000000000000 ) ) ;
#77 = CARTESIAN_POINT ( 'NONE',  ( 3.000000000000000000, 0.000000000000000000, 0.000000000000000000 ) ) ;
#78 = VECTOR ( 'NONE', #26, 1000.000000000000000 ) ;
#79 = DIRECTION ( 'NONE',  ( -1.000000000000000000, -0.000000000000000000, -0.000000000000000000 ) ) ;
#80 = LINE ( 'NONE', #54, #78 ) ;
#81 = CARTESIAN_POINT ( 'NONE',  ( -1.614212418857619014, 0.000000000000000000, 0.000000000000000000 ) ) ;
#82 = ORIENTED_EDGE ( 'NONE', *, *, #134, .T. ) ;
#83 = ADVANCED_FACE ( 'NONE', ( #263 ), #178, .F. ) ;
#84 = DIRECTION ( 'NONE',  ( -1.000000000000000000, -0.000000000000000000, -0.000000000000000000 ) ) ;
#85 = DIRECTION ( 'NONE',  ( -0.000000000000000000, 0.000000000000000000, 1.000000000000000000 ) ) ;
#86 = AXIS2_PLACEMENT_3D ( 'NONE', #195, #138, #61 ) ;
#87 = ORIENTED_EDGE ( 'NONE', *, *, #243, .F. ) ;
#88 = LOCAL_TIME ( 9, 25, 7.000000000000000000, #329 ) ;
#89 = DIRECTION ( 'NONE',  ( 0.000000000000000000, 0.000000000000000000, 1.000000000000000000 ) ) ;
#90 = ORIENTED_EDGE ( 'NONE', *, *, #15, .T. ) ;
#91 = EDGE_CURVE ( 'NONE', #141, #7, #69, .T. ) ;
#92 = CIRCLE ( 'NONE', #56, 10.00000000000000000 ) ;
#93 = FACE_OUTER_BOUND ( 'NONE', #164, .T. ) ;
#94 = AXIS2_PLACEMENT_3D ( 'NONE', #286, #200, #333 ) ;
#95 =( GEOMETRIC_REPRESENTATION_CONTEXT ( 3 ) GLOBAL_UNCERTAINTY_ASSIGNED_CONTEXT ( ( #156 ) ) GLOBAL_UNIT_ASSIGNED_CONTEXT ( ( #269, #241, #4 ) ) REPRESENTATION_CONTEXT ( 'NONE', 'WORKASPACE' ) );
#96 = EDGE_LOOP ( 'NONE', ( #36, #82, #324, #169 ) ) ;
#97 = DATE_AND_TIME ( #127, #88 ) ;
#98 = CARTESIAN_POINT ( 'NONE',  ( -3.000000000000000000, 0.000000000000000000, 12.69999999999999929 ) ) ;
#99 = CARTESIAN_POINT ( 'NONE',  ( -2.500000000000000444, 0.000000000000000000, 0.000000000000000000 ) ) ;
#100 = SECURITY_CLASSIFICATION ( '', '', #51 ) ;
#101 = CARTESIAN_POINT ( 'NONE',  ( 2.999999999999999112, 0.000000000000000000, 10.00000000000000000 ) ) ;
#102 = CARTESIAN_POINT ( 'NONE',  ( -2.500000000000000444, 10.00000000000000000, 0.000000000000000000 ) ) ;
#103 = CC_DESIGN_DATE_AND_TIME_ASSIGNMENT ( #41, #227, ( #100 ) ) ;
#104 = FACE_OUTER_BOUND ( 'NONE', #63, .T. ) ;
#105 = COORDINATED_UNIVERSAL_TIME_OFFSET ( 8, 0, .AHEAD. ) ;
#106 = CARTESIAN_POINT ( 'NONE',  ( 2.999999999999999112, 1.224646799147353256E-15, -10.00000000000000000 ) ) ;
#107 = CIRCLE ( 'NONE', #208, 10.00000000000000000 ) ;
#108 = CARTESIAN_POINT ( 'NONE',  ( -3.000000000000000444, 0.000000000000000000, 10.00000000000000000 ) ) ;
#109 = CC_DESIGN_APPROVAL ( #173, ( #114 ) ) ;
#110 = FACE_OUTER_BOUND ( 'NONE', #12, .T. ) ;
#111 = VERTEX_POINT ( 'NONE', #98 ) ;
#112 = AXIS2_PLACEMENT_3D ( 'NONE', #77, #281, #306 ) ;
#113 = ORIENTED_EDGE ( 'NONE', *, *, #91, .F. ) ;
#114 = PRODUCT_DEFINITION_FORMATION_WITH_SPECIFIED_SOURCE ( 'ANY', '', #27, .NOT_KNOWN. ) ;
#115 = VERTEX_POINT ( 'NONE', #18 ) ;
#116 = ORIENTED_EDGE ( 'NONE', *, *, #91, .T. ) ;
#117 = ORIENTED_EDGE ( 'NONE', *, *, #163, .F. ) ;
#118 = EDGE_CURVE ( 'NONE', #268, #246, #234, .T. ) ;
#119 = LOCAL_TIME ( 9, 25, 7.000000000000000000, #302 ) ;
#120 = PERSON_AND_ORGANIZATION ( #48, #236 ) ;
#121 = DIRECTION ( 'NONE',  ( 0.000000000000000000, 0.000000000000000000, 1.000000000000000000 ) ) ;
#122 = CARTESIAN_POINT ( 'NONE',  ( -1.614212418857619014, 1.555301434917138433E-15, -12.69999999999999929 ) ) ;
#123 = CARTESIAN_POINT ( 'NONE',  ( 3.000000000000000000, 0.000000000000000000, 12.69999999999999929 ) ) ;
#124 = CLOSED_SHELL ( 'NONE', ( #136, #255, #165, #238, #5, #83, #62, #232, #221, #176 ) ) ;
#125 = CYLINDRICAL_SURFACE ( 'NONE', #261, 12.69999999999999929 ) ;
#126 = DIRECTION ( 'NONE',  ( 0.000000000000000000, 0.000000000000000000, 1.000000000000000000 ) ) ;
#127 = CALENDAR_DATE ( 2020, 23, 12 ) ;
#128 = APPROVAL_ROLE ( '' ) ;
#129 = CC_DESIGN_APPROVAL ( #35, ( #331 ) ) ;
#130 = CC_DESIGN_DATE_AND_TIME_ASSIGNMENT ( #237, #19, ( #331 ) ) ;
#131 = ORIENTED_EDGE ( 'NONE', *, *, #204, .T. ) ;
#132 = MECHANICAL_CONTEXT ( 'NONE', #57, 'mechanical' ) ;
#133 = VERTEX_POINT ( 'NONE', #101 ) ;
#134 = EDGE_CURVE ( 'NONE', #185, #278, #308, .T. ) ;
#135 = CARTESIAN_POINT ( 'NONE',  ( 2.500000000000000888, 0.000000000000000000, 0.000000000000000000 ) ) ;
#136 = ADVANCED_FACE ( 'NONE', ( #104 ), #125, .T. ) ;
#137 = AXIS2_PLACEMENT_3D ( 'NONE', #102, #170, #76 ) ;
#138 = DIRECTION ( 'NONE',  ( -1.000000000000000000, -0.000000000000000000, -0.000000000000000000 ) ) ;
#139 = LINE ( 'NONE', #206, #309 ) ;
#140 = EDGE_LOOP ( 'NONE', ( #213, #276, #39, #189 ) ) ;
#141 = VERTEX_POINT ( 'NONE', #123 ) ;
#142 = PERSON_AND_ORGANIZATION ( #48, #236 ) ;
#143 = ORIENTED_EDGE ( 'NONE', *, *, #34, .T. ) ;
#144 = APPLICATION_PROTOCOL_DEFINITION ( 'international standard', 'config_control_design', 1994, #252 ) ;
#145 = DIRECTION ( 'NONE',  ( 1.000000000000000000, 0.000000000000000000, 0.000000000000000000 ) ) ;
#146 = DIRECTION ( 'NONE',  ( -1.000000000000000000, -0.000000000000000000, -0.000000000000000000 ) ) ;
#147 = DIRECTION ( 'NONE',  ( 1.000000000000000000, 0.000000000000000000, 0.000000000000000000 ) ) ;
#148 = VECTOR ( 'NONE', #307, 1000.000000000000000 ) ;
#149 = CIRCLE ( 'NONE', #38, 10.00000000000000000 ) ;
#150 = DIRECTION ( 'NONE',  ( 0.000000000000000000, 0.000000000000000000, -1.000000000000000000 ) ) ;
#151 = APPROVAL_DATE_TIME ( #97, #244 ) ;
#152 = DIRECTION ( 'NONE',  ( 0.000000000000000000, 0.000000000000000000, 1.000000000000000000 ) ) ;
#153 = DIRECTION ( 'NONE',  ( -1.000000000000000000, -0.000000000000000000, -0.000000000000000000 ) ) ;
#154 = PERSON_AND_ORGANIZATION ( #48, #236 ) ;
#155 = FACE_OUTER_BOUND ( 'NONE', #96, .T. ) ;
#156 = UNCERTAINTY_MEASURE_WITH_UNIT (LENGTH_MEASURE( 1.000000000000000082E-05 ), #269, 'distance_accuracy_value', 'NONE');
#157 = CARTESIAN_POINT ( 'NONE',  ( -3.000000000000000444, 1.224646799147353256E-15, -10.00000000000000000 ) ) ;
#158 = CC_DESIGN_PERSON_AND_ORGANIZATION_ASSIGNMENT ( #120, #277, ( #100 ) ) ;
#159 = ORIENTED_EDGE ( 'NONE', *, *, #193, .T. ) ;
#160 = ORIENTED_EDGE ( 'NONE', *, *, #217, .F. ) ;
#161 = CIRCLE ( 'NONE', #319, 10.00000000000000000 ) ;
#162 = PERSON_AND_ORGANIZATION ( #48, #236 ) ;
#163 = EDGE_CURVE ( 'NONE', #320, #111, #58, .T. ) ;
#164 = EDGE_LOOP ( 'NONE', ( #248, #40, #143, #10 ) ) ;
#165 = ADVANCED_FACE ( 'NONE', ( #171 ), #310, .F. ) ;
#166 = ADVANCED_BREP_SHAPE_REPRESENTATION ( 'Q-QZWP-R4-20-1550-M', ( #228, #190 ), #95 ) ;
#167 = EDGE_LOOP ( 'NONE', ( #160, #249 ) ) ;
#168 = PERSON_AND_ORGANIZATION ( #48, #236 ) ;
#169 = ORIENTED_EDGE ( 'NONE', *, *, #118, .F. ) ;
#170 = DIRECTION ( 'NONE',  ( 1.000000000000000000, 0.000000000000000000, 0.000000000000000000 ) ) ;
#171 = FACE_OUTER_BOUND ( 'NONE', #140, .T. ) ;
#172 = EDGE_CURVE ( 'NONE', #219, #115, #233, .T. ) ;
#173 = APPROVAL ( #250, 'UNSPECIFIED' ) ;
#174 = DIRECTION ( 'NONE',  ( -1.000000000000000000, -0.000000000000000000, -0.000000000000000000 ) ) ;
#175 = DIRECTION ( 'NONE',  ( -1.000000000000000000, -0.000000000000000000, -0.000000000000000000 ) ) ;
#176 = ADVANCED_FACE ( 'NONE', ( #330 ), #303, .F. ) ;
#177 = AXIS2_PLACEMENT_3D ( 'NONE', #183, #153, #30 ) ;
#178 = CYLINDRICAL_SURFACE ( 'NONE', #266, 10.00000000000000000 ) ;
#179 = DIRECTION ( 'NONE',  ( 0.000000000000000000, 0.000000000000000000, 1.000000000000000000 ) ) ;
#180 = PRODUCT_RELATED_PRODUCT_CATEGORY ( 'detail', '', ( #27 ) ) ;
#181 = APPROVAL_DATE_TIME ( #305, #173 ) ;
#182 = CARTESIAN_POINT ( 'NONE',  ( 2.999999999999999112, 0.000000000000000000, 0.000000000000000000 ) ) ;
#183 = CARTESIAN_POINT ( 'NONE',  ( -3.000000000000000000, 0.000000000000000000, 0.000000000000000000 ) ) ;
#184 = AXIS2_PLACEMENT_3D ( 'NONE', #332, #202, #45 ) ;
#185 = VERTEX_POINT ( 'NONE', #44 ) ;
#186 = CARTESIAN_POINT ( 'NONE',  ( -2.500000000000000444, 0.000000000000000000, 10.00000000000000000 ) ) ;
#187 = CARTESIAN_POINT ( 'NONE',  ( -3.000000000000000000, 1.555301434917138433E-15, -12.69999999999999929 ) ) ;
#188 = PERSON_AND_ORGANIZATION_ROLE ( 'design_owner' ) ;
#189 = ORIENTED_EDGE ( 'NONE', *, *, #34, .F. ) ;
#190 = AXIS2_PLACEMENT_3D ( 'NONE', #212, #314, #271 ) ;
#191 = CC_DESIGN_PERSON_AND_ORGANIZATION_ASSIGNMENT ( #207, #25, ( #331 ) ) ;
#192 = CARTESIAN_POINT ( 'NONE',  ( 2.999999999999999112, 0.000000000000000000, 0.000000000000000000 ) ) ;
#193 = EDGE_CURVE ( 'NONE', #185, #268, #325, .T. ) ;
#194 = CYLINDRICAL_SURFACE ( 'NONE', #86, 10.00000000000000000 ) ;
#195 = CARTESIAN_POINT ( 'NONE',  ( -1.614212418857619014, 0.000000000000000000, 0.000000000000000000 ) ) ;
#196 = LOCAL_TIME ( 9, 25, 7.000000000000000000, #105 ) ;
#197 = CALENDAR_DATE ( 2020, 23, 12 ) ;
#198 = ORIENTED_EDGE ( 'NONE', *, *, #74, .F. ) ;
#199 = APPROVAL_DATE_TIME ( #65, #35 ) ;
#200 = DIRECTION ( 'NONE',  ( -1.000000000000000000, -0.000000000000000000, -0.000000000000000000 ) ) ;
#201 = APPROVAL_STATUS ( 'not_yet_approved' ) ;
#202 = DIRECTION ( 'NONE',  ( 1.000000000000000000, 0.000000000000000000, 0.000000000000000000 ) ) ;
#203 = CARTESIAN_POINT ( 'NONE',  ( -1.614212418857619014, 1.224646799147353256E-15, -10.00000000000000000 ) ) ;
#204 = EDGE_CURVE ( 'NONE', #7, #320, #20, .T. ) ;
#205 = DIRECTION ( 'NONE',  ( -1.000000000000000000, -0.000000000000000000, -0.000000000000000000 ) ) ;
#206 = CARTESIAN_POINT ( 'NONE',  ( -1.614212418857619014, 0.000000000000000000, 10.00000000000000000 ) ) ;
#207 = PERSON_AND_ORGANIZATION ( #48, #236 ) ;
#208 = AXIS2_PLACEMENT_3D ( 'NONE', #8, #84, #179 ) ;
#209 = CARTESIAN_POINT ( 'NONE',  ( 2.999999999999999112, 12.69999999999999929, 0.000000000000000000 ) ) ;
#210 = COORDINATED_UNIVERSAL_TIME_OFFSET ( 8, 0, .AHEAD. ) ;
#211 = DIRECTION ( 'NONE',  ( 0.000000000000000000, 0.000000000000000000, 1.000000000000000000 ) ) ;
#212 = CARTESIAN_POINT ( 'NONE',  ( 0.000000000000000000, 0.000000000000000000, 0.000000000000000000 ) ) ;
#213 = ORIENTED_EDGE ( 'NONE', *, *, #15, .F. ) ;
#214 = DIRECTION ( 'NONE',  ( -1.000000000000000000, 0.000000000000000000, -0.000000000000000000 ) ) ;
#215 = LOCAL_TIME ( 9, 25, 7.000000000000000000, #287 ) ;
#216 = PLANE ( 'NONE',  #226 ) ;
#217 = EDGE_CURVE ( 'NONE', #268, #185, #43, .T. ) ;
#218 = ORIENTED_EDGE ( 'NONE', *, *, #163, .T. ) ;
#219 = VERTEX_POINT ( 'NONE', #106 ) ;
#220 = CC_DESIGN_PERSON_AND_ORGANIZATION_ASSIGNMENT ( #168, #235, ( #114 ) ) ;
#221 = ADVANCED_FACE ( 'NONE', ( #292, #55 ), #6, .F. ) ;
#222 = EDGE_LOOP ( 'NONE', ( #274, #90 ) ) ;
#223 = ORIENTED_EDGE ( 'NONE', *, *, #47, .T. ) ;
#224 = AXIS2_PLACEMENT_3D ( 'NONE', #11, #298, #89 ) ;
#225 = EDGE_LOOP ( 'NONE', ( #64, #322, #323, #117 ) ) ;
#226 = AXIS2_PLACEMENT_3D ( 'NONE', #318, #214, #85 ) ;
#227 = DATE_TIME_ROLE ( 'classification_date' ) ;
#228 = MANIFOLD_SOLID_BREP ( 'Ðý×', #124 ) ;
#229 = DIRECTION ( 'NONE',  ( -1.000000000000000000, -0.000000000000000000, -0.000000000000000000 ) ) ;
#230 = DIRECTION ( 'NONE',  ( -1.000000000000000000, -0.000000000000000000, -0.000000000000000000 ) ) ;
#231 = DIRECTION ( 'NONE',  ( -1.000000000000000000, -0.000000000000000000, -0.000000000000000000 ) ) ;
#232 = ADVANCED_FACE ( 'NONE', ( #9 ), #288, .T. ) ;
#233 = LINE ( 'NONE', #203, #148 ) ;
#234 = LINE ( 'NONE', #49, #289 ) ;
#235 = PERSON_AND_ORGANIZATION_ROLE ( 'design_supplier' ) ;
#236 = ORGANIZATION ( 'UNSPECIFIED', 'UNSPECIFIED', '' ) ;
#237 = DATE_AND_TIME ( #253, #119 ) ;
#238 = ADVANCED_FACE ( 'NONE', ( #110 ), #216, .F. ) ;
#239 = EDGE_LOOP ( 'NONE', ( #326, #159, #301, #223 ) ) ;
#240 = CC_DESIGN_PERSON_AND_ORGANIZATION_ASSIGNMENT ( #162, #188, ( #27 ) ) ;
#241 =( NAMED_UNIT ( * ) PLANE_ANGLE_UNIT ( ) SI_UNIT ( $, .RADIAN. ) );
#242 = EDGE_CURVE ( 'NONE', #16, #115, #149, .T. ) ;
#243 = EDGE_CURVE ( 'NONE', #278, #246, #107, .T. ) ;
#244 = APPROVAL ( #3, 'UNSPECIFIED' ) ;
#245 = CARTESIAN_POINT ( 'NONE',  ( 3.000000000000000000, 1.555301434917138433E-15, -12.69999999999999929 ) ) ;
#246 = VERTEX_POINT ( 'NONE', #108 ) ;
#247 = AXIS2_PLACEMENT_3D ( 'NONE', #209, #2, #313 ) ;
#248 = ORIENTED_EDGE ( 'NONE', *, *, #172, .F. ) ;
#249 = ORIENTED_EDGE ( 'NONE', *, *, #193, .F. ) ;
#250 = APPROVAL_STATUS ( 'not_yet_approved' ) ;
#251 = CARTESIAN_POINT ( 'NONE',  ( -3.000000000000000000, 0.000000000000000000, 0.000000000000000000 ) ) ;
#252 = APPLICATION_CONTEXT ( 'configuration controlled 3d designs of mechanical parts and assemblies' ) ;
#253 = CALENDAR_DATE ( 2020, 23, 12 ) ;
#254 = DIRECTION ( 'NONE',  ( 0.000000000000000000, 0.000000000000000000, -1.000000000000000000 ) ) ;
#255 = ADVANCED_FACE ( 'NONE', ( #155 ), #32, .F. ) ;
#256 = DIRECTION ( 'NONE',  ( 0.000000000000000000, 0.000000000000000000, 1.000000000000000000 ) ) ;
#257 = EDGE_CURVE ( 'NONE', #133, #219, #293, .T. ) ;
#258 = AXIS2_PLACEMENT_3D ( 'NONE', #192, #297, #295 ) ;
#259 = CARTESIAN_POINT ( 'NONE',  ( -1.614212418857619014, 1.224646799147353256E-15, -10.00000000000000000 ) ) ;
#260 = VECTOR ( 'NONE', #230, 1000.000000000000000 ) ;
#261 = AXIS2_PLACEMENT_3D ( 'NONE', #73, #229, #21 ) ;
#262 = APPROVAL_PERSON_ORGANIZATION ( #335, #35, #28 ) ;
#263 = FACE_OUTER_BOUND ( 'NONE', #239, .T. ) ;
#264 = DIRECTION ( 'NONE',  ( 0.000000000000000000, 0.000000000000000000, 1.000000000000000000 ) ) ;
#265 = PERSON_AND_ORGANIZATION_ROLE ( 'creator' ) ;
#266 = AXIS2_PLACEMENT_3D ( 'NONE', #283, #205, #282 ) ;
#267 = DIRECTION ( 'NONE',  ( -1.000000000000000000, -0.000000000000000000, -0.000000000000000000 ) ) ;
#268 = VERTEX_POINT ( 'NONE', #186 ) ;
#269 =( LENGTH_UNIT ( ) NAMED_UNIT ( * ) SI_UNIT ( .MILLI., .METRE. ) );
#270 = DIRECTION ( 'NONE',  ( 0.000000000000000000, 0.000000000000000000, 1.000000000000000000 ) ) ;
#271 = DIRECTION ( 'NONE',  ( 1.000000000000000000, 0.000000000000000000, 0.000000000000000000 ) ) ;
#272 = EDGE_LOOP ( 'NONE', ( #113, #315 ) ) ;
#273 = CARTESIAN_POINT ( 'NONE',  ( 2.500000000000000888, 0.000000000000000000, 10.00000000000000000 ) ) ;
#274 = ORIENTED_EDGE ( 'NONE', *, *, #257, .T. ) ;
#275 = AXIS2_PLACEMENT_3D ( 'NONE', #99, #145, #254 ) ;
#276 = ORIENTED_EDGE ( 'NONE', *, *, #172, .T. ) ;
#277 = PERSON_AND_ORGANIZATION_ROLE ( 'classification_officer' ) ;
#278 = VERTEX_POINT ( 'NONE', #157 ) ;
#279 = CIRCLE ( 'NONE', #258, 10.00000000000000000 ) ;
#280 = APPROVAL_ROLE ( '' ) ;
#281 = DIRECTION ( 'NONE',  ( -1.000000000000000000, -0.000000000000000000, -0.000000000000000000 ) ) ;
#282 = DIRECTION ( 'NONE',  ( 0.000000000000000000, 0.000000000000000000, 1.000000000000000000 ) ) ;
#283 = CARTESIAN_POINT ( 'NONE',  ( -1.614212418857619014, 0.000000000000000000, 0.000000000000000000 ) ) ;
#284 = PLANE ( 'NONE',  #1 ) ;
#285 = AXIS2_PLACEMENT_3D ( 'NONE', #182, #317, #152 ) ;
#286 = CARTESIAN_POINT ( 'NONE',  ( -1.614212418857619014, 0.000000000000000000, 0.000000000000000000 ) ) ;
#287 = COORDINATED_UNIVERSAL_TIME_OFFSET ( 8, 0, .AHEAD. ) ;
#288 = CYLINDRICAL_SURFACE ( 'NONE', #327, 12.69999999999999929 ) ;
#289 = VECTOR ( 'NONE', #146, 1000.000000000000000 ) ;
#290 = EDGE_CURVE ( 'NONE', #141, #111, #80, .T. ) ;
#291 = DIRECTION ( 'NONE',  ( -1.000000000000000000, -0.000000000000000000, -0.000000000000000000 ) ) ;
#292 = FACE_OUTER_BOUND ( 'NONE', #272, .T. ) ;
#293 = CIRCLE ( 'NONE', #285, 10.00000000000000000 ) ;
#294 = ORIENTED_EDGE ( 'NONE', *, *, #242, .F. ) ;
#295 = DIRECTION ( 'NONE',  ( 0.000000000000000000, 0.000000000000000000, 1.000000000000000000 ) ) ;
#296 = EDGE_CURVE ( 'NONE', #111, #320, #23, .T. ) ;
#297 = DIRECTION ( 'NONE',  ( -1.000000000000000000, -0.000000000000000000, -0.000000000000000000 ) ) ;
#298 = DIRECTION ( 'NONE',  ( -1.000000000000000000, -0.000000000000000000, -0.000000000000000000 ) ) ;
#299 = APPROVAL_PERSON_ORGANIZATION ( #154, #244, #280 ) ;
#300 = PERSON_AND_ORGANIZATION ( #48, #236 ) ;
#301 = ORIENTED_EDGE ( 'NONE', *, *, #118, .T. ) ;
#302 = COORDINATED_UNIVERSAL_TIME_OFFSET ( 8, 0, .AHEAD. ) ;
#303 = PLANE ( 'NONE',  #137 ) ;
#304 = VECTOR ( 'NONE', #22, 1000.000000000000000 ) ;
#305 = DATE_AND_TIME ( #197, #196 ) ;
#306 = DIRECTION ( 'NONE',  ( 0.000000000000000000, 0.000000000000000000, 1.000000000000000000 ) ) ;
#307 = DIRECTION ( 'NONE',  ( -1.000000000000000000, -0.000000000000000000, -0.000000000000000000 ) ) ;
#308 = LINE ( 'NONE', #259, #304 ) ;
#309 = VECTOR ( 'NONE', #175, 1000.000000000000000 ) ;
#310 = CYLINDRICAL_SURFACE ( 'NONE', #94, 10.00000000000000000 ) ;
#311 = LOCAL_TIME ( 9, 25, 7.000000000000000000, #210 ) ;
#312 = CARTESIAN_POINT ( 'NONE',  ( -1.614212418857619014, 0.000000000000000000, 0.000000000000000000 ) ) ;
#313 = DIRECTION ( 'NONE',  ( -0.000000000000000000, 0.000000000000000000, 1.000000000000000000 ) ) ;
#314 = DIRECTION ( 'NONE',  ( 0.000000000000000000, 0.000000000000000000, 1.000000000000000000 ) ) ;
#315 = ORIENTED_EDGE ( 'NONE', *, *, #13, .F. ) ;
#316 = DESIGN_CONTEXT ( 'detailed design', #252, 'design' ) ;
#317 = DIRECTION ( 'NONE',  ( -1.000000000000000000, -0.000000000000000000, -0.000000000000000000 ) ) ;
#318 = CARTESIAN_POINT ( 'NONE',  ( 2.500000000000000444, 10.00000000000000000, 0.000000000000000000 ) ) ;
#319 = AXIS2_PLACEMENT_3D ( 'NONE', #52, #174, #256 ) ;
#320 = VERTEX_POINT ( 'NONE', #187 ) ;
#321 = APPROVAL_PERSON_ORGANIZATION ( #142, #173, #128 ) ;
#322 = ORIENTED_EDGE ( 'NONE', *, *, #13, .T. ) ;
#323 = ORIENTED_EDGE ( 'NONE', *, *, #290, .T. ) ;
#324 = ORIENTED_EDGE ( 'NONE', *, *, #243, .T. ) ;
#325 = CIRCLE ( 'NONE', #275, 10.00000000000000000 ) ;
#326 = ORIENTED_EDGE ( 'NONE', *, *, #134, .F. ) ;
#327 = AXIS2_PLACEMENT_3D ( 'NONE', #312, #79, #270 ) ;
#328 = PRODUCT_DEFINITION_SHAPE ( 'NONE', 'NONE',  #331 ) ;
#329 = COORDINATED_UNIVERSAL_TIME_OFFSET ( 8, 0, .AHEAD. ) ;
#330 = FACE_OUTER_BOUND ( 'NONE', #167, .T. ) ;
#331 = PRODUCT_DEFINITION ( 'UNKNOWN', '', #114, #316 ) ;
#332 = CARTESIAN_POINT ( 'NONE',  ( -2.500000000000000444, 0.000000000000000000, 0.000000000000000000 ) ) ;
#333 = DIRECTION ( 'NONE',  ( 0.000000000000000000, 0.000000000000000000, 1.000000000000000000 ) ) ;
#334 = FACE_OUTER_BOUND ( 'NONE', #37, .T. ) ;
#335 = PERSON_AND_ORGANIZATION ( #48, #236 ) ;
ENDSEC;
END-ISO-10303-21;
